Song Title: Sail 
Album: Megalithic Symphony 
Artist: AWOLNATION

Music Video: Sail - AWOLNATION

Song Lyrics: Sail - AWOLNATION

Sail!

This is how I show my love
I made it in my mind because
I blame it on my A.D.D. baby

This is how an angel cries
I blame it on my own supply
Blame it on my A.D.D. baby

Sail!
Sail!
Sail!
Sail!
Sail!

Maybe I should cry for help
Maybe I should kill myself
Blame it on my A.D.D. baby

Maybe I'm a different breed
Maybe I'm not listening
So blame it on my A.D.D. baby

Sail!
Sail!
Sail!
Sail!
Sail!

La la la la la la oh!

La la la la la la oh!

Sail!
Sail!
Sail!
Sail!
Sail!

Sail with me into the dark
Sail!
Sail with me into the dark
Sail!
Sail with me into the dark
Sail!
Sail with me, sail with me
Sail!

Music Sheet:

 E5
e---------------------------------|
B---------------------------------|
G-9-------------------------------|
D-9------------------7--9--7------|
A-7---7-7-7-10-10-10---------10-7-|
E---------------------------------| x2

  D5
e-----------------------------|
B-----------------------------|
G-7---------------------------|
D-7---------------------5-----|
A-5---5-5-5-7-7-7----7----7-5-|
E-----------------7-----------|

  G5                 D5
e------------------------------------|
B------------------------------------|
G--------------------7---9-9-9-12----|
D-5---9-9-9-12-12-12-7---------------|
A-5------------------5---------------|
E-3----------------------------------|

Just listen to the song for timing, it's pretty simple. That's pretty much the whole song, just repeat it or mix it up and play the chorus with just chords. Sounds great if one person plays the chords and the other plays this.